Jump to content


Sing Along with CanEHdian..Line by Line


  • Please log in to reply
698 replies to this topic

#1 CanEHdian

CanEHdian

    True north strong and free

  • Members *
  • 3294 posts

Posted 10 September 2005 - 01:23 PM

Well since the Xanadu thread worked out pretty nicely..its time to start a new one.   yes.gif


We'll start with Closer to the Heart  heart.gif  

The last person to finish the lyric, gets to pick the new tune.

Sound good?   Let the singing begin!   applaudit.gif






2.gif  Closer to the Heart -


And the men who hold high places

Sponsored Post

#2 sullysue

sullysue

    Arriving Somewhere...

  • Members *
  • 16035 posts
  • Gender:Female
  • Location:Texas

Posted 10 September 2005 - 01:24 PM

Must be the ones who start

#3 peifer21

peifer21

    Long Awaited Froind

  • Members
  • 48 posts

Posted 10 September 2005 - 01:40 PM

"To mould a new reality"
    

Edited by peifer21, 10 September 2005 - 01:42 PM.


#4 Drumnut

Drumnut

    Bill Gates

  • Members *
  • 18341 posts
  • Gender:Male
  • Location:Las Vegas, NV

Posted 10 September 2005 - 01:41 PM

To mould a new reality


#5 sullysue

sullysue

    Arriving Somewhere...

  • Members *
  • 16035 posts
  • Gender:Female
  • Location:Texas

Posted 10 September 2005 - 01:41 PM

Closer to the heart

#6 Clark3934

Clark3934

    The Seeker

  • Members *
  • 258 posts
  • Location:Oklahoma

Posted 10 September 2005 - 01:59 PM

Closer to the heart.

#7 Digital Man

Digital Man

    He's got a force field and a flexible plan...

  • Moderator
  • 8407 posts
  • Gender:Male
  • Location:Windsor, Ontario
  • Interests:My Beautiful Fiancee Sundog, all our kids, RUSH, cigars, beer, Tequila, RUSH, bbqing, snow skiing

Posted 10 September 2005 - 02:02 PM

The blacksmith & the artist

#8 Test4VitalSigns

Test4VitalSigns

    London Calling

  • Members *
  • 36903 posts
  • Gender:Male
  • Location:London Ontario Canada

Posted 10 September 2005 - 02:09 PM

someone started CTTH in the Xanadu thread....oh well we'll sing it again   laugh.gif




Reflect it in their art

Edited by Test4VitalSigns, 10 September 2005 - 02:09 PM.


#9 PuppetKing2112

PuppetKing2112

    The Music Database

  • Members *
  • 8814 posts
  • Gender:Male
  • Location:Oregon
  • Interests:Music, basketball, writing

Posted 10 September 2005 - 02:09 PM

Damn, Test...you beat me to it...

Must forget their creativity

Edited by PuppetKing2112, 10 September 2005 - 02:10 PM.


#10 Test4VitalSigns

Test4VitalSigns

    London Calling

  • Members *
  • 36903 posts
  • Gender:Male
  • Location:London Ontario Canada

Posted 10 September 2005 - 02:15 PM

sorry man!  




oh and they mustn't forget  wink.gif  laugh.gif






closer to the heart

#11 Mustard Death

Mustard Death

    *Explodes*

  • Members *
  • 5669 posts
  • Location:Atlanta, GA
  • Interests:life.

Posted 10 September 2005 - 03:45 PM

Philosophers and plowmen...

#12 Drumnut

Drumnut

    Bill Gates

  • Members *
  • 18341 posts
  • Gender:Male
  • Location:Las Vegas, NV

Posted 10 September 2005 - 03:56 PM

Each must know his part...

#13 CanEHdian

CanEHdian

    True north strong and free

  • Members *
  • 3294 posts

Posted 10 September 2005 - 04:05 PM

To sow a new mentality

#14 sullysue

sullysue

    Arriving Somewhere...

  • Members *
  • 16035 posts
  • Gender:Female
  • Location:Texas

Posted 10 September 2005 - 04:12 PM

Closer to the heart

#15 Mandalorian Hunter

Mandalorian Hunter

    The God Of Balance

  • Members
  • 5811 posts
  • Gender:Male

Posted 10 September 2005 - 04:24 PM

Closer to the heart....Yeah, yeah!

(Kick ass geetar solo)

#16 CanEHdian

CanEHdian

    True north strong and free

  • Members *
  • 3294 posts

Posted 10 September 2005 - 04:32 PM

QUOTE (Mandalorian Hunter @ Sep 10 2005, 05:24 PM)
Closer to the heart....Yeah, yeah!

(Kick ass geetar solo)

  1022.gif

goodpost.gif  

#17 Mandalorian Hunter

Mandalorian Hunter

    The God Of Balance

  • Members
  • 5811 posts
  • Gender:Male

Posted 10 September 2005 - 04:47 PM

I can post the tab for it if you want?

#18 CanEHdian

CanEHdian

    True north strong and free

  • Members *
  • 3294 posts

Posted 10 September 2005 - 04:49 PM

QUOTE (Mandalorian Hunter @ Sep 10 2005, 05:47 PM)
I can post the tab for it if you want?

I have NO IDEA how to play guitar  unsure.gif



Thank you anyway  trink39.gif
biggrin.gif  

#19 Mandalorian Hunter

Mandalorian Hunter

    The God Of Balance

  • Members
  • 5811 posts
  • Gender:Male

Posted 10 September 2005 - 04:50 PM

[Guitar Solo]

e:--10b12~~-----10~~----8~----------------7---9-10--9-10-12-------|
B:--10b12~~-----10~~----8~------7--8--10------7-8-----------------|
G:----------------------9~------7--7--7---------------------------|
D:----------------------------------------------------------------|
A:----------------------------------------------------------------|
E:----------------------------------------------------------------|

e:-10-12-14--12-14-15--12-14-15--14-15-17--17b19~---17b19---------|
B:----------------------------------------------------------------|
G:----------------------------------------------------------------|
D:----------------------------------------------------------------|
A:----------------------------------------------------------------|
E:----------------------------------------------------------------|

e:-17b19---17b19r17--12-14-15---15b17---15b16---15b17~------------|
B:----------------------------------------------------------------|
G:----------------------------------------------------------------|
D:----------------------------------------------------------------|
A:----------------------------------------------------------------|
E:----------------------------------------------------------------|

e:-------------------------------------------15-14-15-14-15-14-15-14-|
B:-15b17r15--15~-15~---17b19r17--17~-17~-----15-14-15-14-15-14-15-14-|
G:-------------------------------------------------------------------|
D:-------------------------------------------------------------------|
A:-------------------------------------------------------------------|
E:-------------------------------------------------------------------|

e:-15b17~-17-17~-----------10-------------------------------------|
B:-15b17~-17-17~---10b12---10---10b12r10---7s8s7------------------|
G:------------------9b11---------9b11r9----6s7s6----9--7--9b10----|
D:--------------------------------------------------9--7--9b10----|
A:----------------------------------------------------------------|
E:----------------------------------------------------------------|

e:-------------------------------------------------------------|
B:------------------------------------------------3-3--3-3-2---|
G:--7~-----4p0---2--2--4b5--4b5~--4~---4b5r4------2-2--2-2-2---|
D:--7~-----4p0---2--2--4b5--4b5~--4~---4b5r4-------------------|
A:-------------------------------------------------------------|
E:-------------------------------------------------------------|

e:-4s5----------------------------------------------------------|
B:-4s5----------------------------------------------------------|
G:-5s6----------------------------------------------------------|
D:--------------------------------------------------------------|
A:--------------------------------------------------------------|
E:--------------------------------------------------------------|


#20 CanEHdian

CanEHdian

    True north strong and free

  • Members *
  • 3294 posts

Posted 10 September 2005 - 04:52 PM

  biggrin.gif


Now..where were we at in the tune unsure.gif
I forget  doh.gif

tongue.gif  




0 user(s) are reading this topic

0 members, 0 guests, 0 anonymous users